New tab: Bahamut Lagoon - "Jojo's Theme" (work in progress)

Started by maelstrom79, July 16, 2007, 11:16:13 AM

previous topic - next topic
Go Down

maelstrom79

"Jojo's Theme"
From Bahamut Lagoon
Composed by Noriko Matsueda
Transcribed by David Lowmiller


Guitar 1 (Flute):
E--------------|----------12--|--------------|--------------|--------------|------12--14--|
B--------------|--------------|--15--12------|--------------|--------------|--12----------|
G--------------|--------------|----------12--|--------------|--------------|--------------|
D--------------|--------------|--------------|--14--12--12--|-(12)-14------|--------------|
A--------------|--------------|--------------|--------------|--------------|--------------|
E--------------|--------------|--------------|--------------|--------------|--------------|

E-15-14-------12-|-(12)-----12--|-(12)----0--||
B-------15-12----|------15------|------------||
G----------------|--------------|------------||
D----------------|--------------|------2-----||
A----------------|--------------|------------||
E----------------|--------------|------------||

E||---------|-----------|-----------|--------0--|--2--3--2-----|--0-----0--|-(0)-----|-----0---||
B||---0-----|-----------|-----------|-----0-----|-----------3--|-----3-----|---------|---------||
G||*-----0--|-----------|-----------|-----------|--------------|-----------|---------|--------*||
D||*--------|--2--0--0--|-(0)-2-----|--2--------|--------------|-----------|---------|--2-----*||
A||---------|-----------|-----------|-----------|--------------|-----------|---------|---------||
E||---------|-----------|-----------|-----------|--------------|-----------|---------|---------||


Guitar 2 & Bass (Piano):
E---------|--0--3--2-----------------|--------------------------|----------------------|
B---------|--0--------3-----------0--|-(0)----------------------|--0-------------------|
G---------|-----------------2-----0--|--------------------0--2--|-------------2--------|
D---------|--------------------2-----|-----------------2--2--5--|-------------------4--|
A---------|-----------------2--------|-----------------2--------|----------------------|
E---------|--------0--2--3-----------|--------0--2--3-----------|--------0----------2--|
          |                          |                          |                      |
G---------|-----4--------------------|-----4--------------------|--------5----------7--|
D---------|--2-----------------------|--0-----------------------|-----5----------7-----|
A---------|--------------------------|--------------------------|--3----------5--------|
E---------|--------------------------|--------------------------|----------------------|

E--------------------------|
B-----------------------0--|
G-----0--------------0--0--|
D-(4)----------2--4--2-----|
A-----------2-----2--------|
E--------0--2--3-----------|
                           |
G-----4--------------------|
D--2-----------------------|
A--------------------------|
E--------------------------|

To be continued...
"Sex is like a bridge game.  You'd better have a good partner or you'd better have a good hand"

Go Up