New tab: Chrono Cross - "Death Sea ~ Tower of Ruin" (work in progress)

Started by maelstrom79, July 16, 2007, 11:18:55 AM

previous topic - next topic
Go Down

maelstrom79


"Death Sea ~ Tower of Ruin"
From Chrono Cross
Composed by Yasunori Mitsuda
Transcribed by David Lowmiller

(Guitar)
E---------6--|-(6)----------------------|-(6)-------4--3-----------|--------------------------|
B---3--4-----|--------------------------|-----------------------6--|--3-----------------------|
G------------|--------------------------|-----------------5--------|--------------------------|
D------------|--------------------3-----|--------------------3-----|--------------------3-----|
A------------|--------6-----5--------5--|--------6-----5--------5--|--------6-----5--------5--|
E------------|-----3-----3-----4--------|-----3-----3-----4--------|-----3-----3-----4--------|
(Bass)       |                          |                          |                          |
G------------|--5-----------------------|--5-----------------------|--5-----------------------|
D---------5--|--------------------------|--------------------------|--------------------------|
A------------|--------------------------|--------------------------|--------------------------|
E------------|--------------------------|--------------------------|--------------------------|

E--------------------------|
B-(3)-------3--4--6--------|
G--------------------------|
D--------------------3--6--|
A--------6-----5--------5--|
E-----3-----3-----4--------|
                           |
G--5-----------------------|
D--------------------------|
A--------------------------|
E--------------------------|

To be continued...
"Sex is like a bridge game.  You'd better have a good partner or you'd better have a good hand"

Go Up