Fullfillment of a request or two..

Started by Mistor, May 08, 2007, 04:10:55 PM

previous topic - next topic
Go Down

Mistor

Your gonna need Powertab to open these but hey at least I came up with something lol.
Good....Bad...., I'm the guy with the gun.

Mistor

Gtr I (E A D G B E) - 'NiGHTS into Dreams'
Gtr II (E A D G B E) - 'sequenced by'Mistor mr_mistor@yahoo.com
Gtr III (E A D G B E) - 'PLEASE, GOD let SEGA'


  Q=100
4/4
  Gtr I
  H    H       H     H      H    H       H     H
|-6---------|-------------|-6---------|-------------|
|-8----6----|--8----------|-8----6----|--8----------|
|-8----7----|--8-----8----|-8----7----|--8-----8----|
|------8----|-10----10----|------8----|-10----10----|
|-----------|-------11----|-----------|-------11----|
|-----------|-------------|-----------|-------------|


  H    H       H     H      H    H       H    H
|-6---------|-------------|-6---------|------------------|
|-8----6----|--8----------|-8----6----|--6----4----------|
|-8----7----|--8-----8----|-8----7----|--8----6----------|
|------8----|-10----10----|------8----|-10---------------|
|-----------|-------11----|-----------|------------------|
|-----------|-------------|-----------|------------------|
|
| Gtr II
| W            W            W            H    E E +S  E.
|-----------|-------------|-----------|---------------6--|
|-----------|-------------|-----------|---------4-(4)----|
|-----------|-------------|-----------|------------------|
|-----------|-------------|-----------|------------------|
|-----------|-------------|-----------|------------------|
|-----------|-------------|-----------|------------------|


   W                     H              H
|---------------------|-----------------------------------|
|--4------------------|--6--------------8-----------------|
|--5------------------|--7--------------8-----------------|
|--6------------------|--8-------------10-----------------|
|---------------------|-----------------------------------|
|---------------------|-----------------------------------|
|
|  H.       S  S  S S    E  E  +E   E  +S  S  S S S  E  S
|-11-------10-11-10---|--------------------------------11-|
|---------------------|-11--------------------------11----|
|---------------------|----12-(12)------------------------|
|---------------------|------------13-(13)---13-----------|
|---------------------|-----------------------------------|
|---------------------|-----------------------------------|


    W
|--------------------------|
|--------------------------|
|---8----------------------|
|--10----------------------|
|--11----------------------|
|--------------------------|
|
|  +H      +E   E  +S  E.
|-(11)----(11)-10-(10)-8---|
|--------------------------|
|--------------------------|
|--------------------------|
|--------------------------|
|--------------------------|


  H          H               H      H
|-------------------------|---------------|
|-6----------8------------|---------------|
|-7----------8------------|---------------|
|-8---------10------------|-10-----12-----|
|-------------------------|-11-----13-----|
|-------------------------|-13-----15-----|
|
| S E S E E +E  E +S  E S    H.        Q
|-6-------------------6---|--6---------8--|
|---------8-(8)-----------|---------------|
|---------------8-(8)-----|---------------|
|-----8-------------------|---------------|
|-------------------------|---------------|
|-------------------------|---------------|


   W                   W
|-------------------|--------------------|
|-------------------|--------------------|
|-------------------|--------------------|
|-13----------------|-13-----------------|
|-15----------------|-15-----------------|
|-16----------------|-16-----------------|
|
|  H    E E +S  E S    H    +Q   +S  S E
|--6----------------|--------------------|
|---------4-(4)-6---|--8----(8)--(8)---9-|
|-------------------|--------------------|
|-------------------|--------------------|
|-------------------|--------------------|
|-------------------|--------------------|


   W             H     Q  Q    H    Q  Q    H    Q  Q
|-------------|-----------1--|-3----1--6--|------------|
|-------------|-----------3--|-4----3--8--|-4----6--8--|
|-------------|-----------4--|-5----3--8--|-5----7--7--|
|-12----------|-13----15-----|------------|-6----8--8--|
|-14----------|-15----17-----|------------|------------|
|-15----------|-16----18-----|------------|------------|
|
|  H.      Q     W             W            W
|-------------|--------------|------------|------------|
|--8----------|--------------|------------|------------|
|-------------|--------------|------------|------------|
|-------------|--------------|------------|------------|
|-------------|--------------|------------|------------|
|-------------|--------------|------------|------------|


  W          H    Q  Q     H    Q  Q    H    Q  Q
|----------|------------|----------6--|------------|
|-8--------|-4----6--6--|--8----6--8--|-4----6--8--|
|-6--------|-5----7--7--|--8----7--8--|-5----7--7--|
|-8--------|-6----8--9--|-10----8-----|-6----8--8--|
|----------|------------|-------------|------------|
|----------|------------|-------------|------------|


  W          H    Q  Q     H    Q  Q    H    Q  Q
|----------|------------|----------6--|------------|
|-8--------|-4----6--6--|--8----6--8--|-4----6--8--|
|-6--------|-5----7--7--|--8----7--8--|-5----7--7--|
|-8--------|-6----8--9--|-10----8-----|-6----8--8--|
|----------|------------|-------------|------------|
|----------|------------|-------------|------------|


  W          H    Q  Q     H    Q  Q    H    Q  Q
|----------|------------|----------6--|------------|
|-8--------|-4----6--6--|--8----6--8--|-4----6--8--|
|-6--------|-5----7--7--|--8----7--8--|-5----7--7--|
|-8--------|-6----8--9--|-10----8-----|-6----8--8--|
|----------|------------|-------------|------------|
|----------|------------|-------------|------------|


  W                H    Q  Q     H               Q         Q
|----------------|------------|----------------------------6----------|
|-8--------------|-4----6--6--|--8---------------6---------8----------|
|-6--------------|-5----7--7--|--8---------------7---------8----------|
|-8--------------|-6----8--9--|-10---------------8--------------------|
|----------------|------------|---------------------------------------|
|----------------|------------|---------------------------------------|
|
| Gtr III
| H    Q  E  S S   H    H        E S S S S  S S  S S  S S  S S  S  S
|-----------23-0-|-0----------|----0---0---23--------20---18---18-19--|
|----------------|------------|-----------------23---23-----------22--|
|----------------|------------|---------------------------------------|
|----------------|------------|---------------------------------------|
|----------------|------------|---------------------------------------|
|----------------|------------|---------------------------------------|


   H                    Q        Q         W
|----------------------------------------|--------------------------|
|--4--------------------6--------8-------|-8------------------------|
|--5--------------------7--------7-------|-6------------------------|
|--6--------------------8--------8-------|-8------------------------|
|----------------------------------------|--------------------------|
|----------------------------------------|--------------------------|
|
|  S  S  S S  S S  S S  S S S S  S S S S   S S S S S S S S Q  S S E
|-----------------20---23---0---23---0---|-0---0---0---0-0-0--0-----|
|-21-20-21---23--------------------------|--------------------------|
|----------------------------------------|--------------------------|
|----------------------------------------|--------------------------|
|----------------------------------------|--------------------------|
|----------------------------------------|--------------------------|


  H           Q       Q
|------------------------------|
|-4-----------6-------6--------|
|-5-----------7-------7--------|
|-6-----------8-------9--------|
|------------------------------|
|------------------------------|
|
| Q  S  S S S S S S S S S S  S
|---------0---0---0---0---0-23-|
|------23----------------------|
|------------------------------|
|------------------------------|
|------------------------------|
|------------------------------|


   H                  Q  Q    H           Q     Q
|------------------------6--|-----------------------|
|--8------------------6--8--|-4-----------6-----8---|
|--8------------------7--8--|-5-----------7-----7---|
|-10------------------8-----|-6-----------8-----8---|
|---------------------------|-----------------------|
|---------------------------|-----------------------|
|
|  S S S  S S  S S  S H       Q  E  S  S  S S E Q
|----0---22---23---20-------|------------18---------|
|---------------------------|------18-20-21---------|
|---------------------------|-----------------------|
|---------------------------|-----------------------|
|---------------------------|-----------------------|
|---------------------------|-----------------------|


  W                        H    Q  Q     H    Q  Q    H    Q  Q
|------------------------|------------|----------6--|-------------|
|-8----------------------|-4----6--6--|--8----6--8--|-4----6--8---|
|-6----------------------|-5----7--7--|--8----7--8--|-5----7--7---|
|-8----------------------|-6----8--9--|-10----8-----|-6----8--8---|
|------------------------|------------|-------------|-------------|
|------------------------|------------|-------------|-------------|
|
| E  S S  S S  S  S H      W             W            W
|--------18---23-21------|------------|-------------|-------------|
|---20-------------------|------------|-------------|-------------|
|------------------------|------------|-------------|-------------|
|------------------------|------------|-------------|-------------|
|------------------------|------------|-------------|-------------|
|------------------------|------------|-------------|-------------|


  W          H    Q  Q     H    Q  Q    H    Q  Q
|----------|------------|----------6--|------------|
|-8--------|-4----6--6--|--8----6--8--|-4----6--8--|
|-6--------|-5----7--7--|--8----7--8--|-5----7--7--|
|-8--------|-6----8--9--|-10----8-----|-6----8--8--|
|----------|------------|-------------|------------|
|----------|------------|-------------|------------|


  W
|------*|
|-8----*|
|-6----*|
|-8----*|
|------*|
|------*|




--------------------------------------------------------------------------------


Duration Legend
---------------
W - whole; H - half; Q - quarter; E - 8th; S - 16th; T - 32nd; X - 64th; a - acciaccatura
+ - note tied to previous; . - note dotted; .. - note double dotted
Uncapitalized letters represent notes that are staccato (1/2 duration)
Irregular groupings are notated above the duration line
Duration letters will always appear directly above the note/fret number it represents the
duration for.  Duration letters with no fret number below them represent rests.  Multi-
bar rests are notated in the form Wxn, where n is the number of bars to rest for.  Low
melody durations appear below the staff

Tablature Legend
----------------
h   - hammer-on
p   - pull-off
b   - bend
pb  - pre-bend
r   - bend release (if no number after the r, then release immediately)
/\  - slide into or out of (from/to "nowhere")
s   - legato slide
S   - shift slide
<n> - natural harmonic
[n]  - artificial harmonic
n(n) - tapped harmonic
~   - vibrato
tr  - trill
T   - tap
TP  - trem. picking
PM  - palm muting
\n/  - tremolo bar dip; n = amount to dip
\n  - tremolo bar down
n/  - tremolo bar up
/n\  - tremolo bar inverted dip
=   - hold bend; also acts as connecting device for hammers/pulls
<> - volume swell (louder/softer)
x   - on rhythm slash represents muted slash
o   - on rhythm slash represents single note slash

Misc Legend
-----------
|  - bar
||  - double bar
||o - repeat start
o|| - repeat end
*|  - double bar (ending)
:  - bar (freetime)
$  - Segno
&  - Coda
Tempo markers - <E/E./Q/Q./H/H.> = BPM(8/16=s8/s16), where s8 = swing 8ths, s16 = swing 16ths



--------------------------------------------------------------------------------

** Generated using Power Tab Editor by Brad Larsen: The Official Power Tab Web Site
Good....Bad...., I'm the guy with the gun.

Go Up