Tab Requests

Started by maelstrom79, June 06, 2007, 05:05:50 PM

previous topic - next topic
Go Down

maelstrom79

Here's a few tabs I'd like to see:

Castlevania 2: Belmont's Revenge - "Cloud Castle" (Gameboy)
Castlevania 2: Belmont's Revenge - "Crystal Castle" (Gameboy)
Castlevania 2: Belmont's Revenge - "Plant Castle" (Gameboy)
Castlevania 2: Belmont's Revenge - "Rock Castle" (Gameboy)
Final Fantasy Legend 2 - "Save the World" (Gameboy)
Final Fantasy V - "Battle With Gilgamesh" (Super Nintendo)
Megaman X - "Spark Mandrill" (Super Nintendo)
Parasite Eve - "Aya's Theme" (PlayStation)

All of these would translate well into hard rock/metal guitar pieces.  I have sheet music for a few of these, if anyone's interested.  I've been working on a number of tabs and have a few completed ones I'll contribute as soon as I can find the time.  Good luck!
"Sex is like a bridge game.  You'd better have a good partner or you'd better have a good hand"

Kotex

#1
July 20, 2007, 02:48:10 PM Last Edit: July 20, 2007, 03:14:55 PM by Kotex
Heres the main part for it.      Sorry it's a little out of whack, but I'm in a hurry right now. 


Mega Man X: Spark Mandrill                           


Staff
     E   E   E   E   E   E   E   E     W                 
E||-----16--14--13--14--13------11--|--L----------------|
B||-------------------------14------|-------------------|
G||---------------------------------|-------------------|
D||---------------------------------|-------------------|
A||---------------------------------|-------------------|
E||---------------------------------|-------------------|


  E  E   E   E   E   E   E   E      E.  T T  S S  Q.     S S  E   
--L--6--13------14------16------|--18---L---16---16------L---14--|
------------11------11----------|--------------------------------|
----------------------------15--|--------------------------------|
--------------------------------|--------------------------------|
--------------------------------|--------------------------------|
--------------------------------|--------------------------------|


   S  S H        S S  S S  S S     W                 
--13-11-9--------L---11------9-|--11----------------|
------------------------9-11---|--------------------|
-------------------------------|--------------------|
-------------------------------|--------------------|
-------------------------------|--------------------|
-------------------------------|--------------------|


  E   E   E   E   E   E   E   E      E.  T T  S S  E.  T T  E   E   E   
--L------13------14------16------|--18---L---16---16---L---14------13--|
-----11------11------11----------|-----------------------------16------|
-----------------------------15--|-------------------------------------|
---------------------------------|-------------------------------------|
---------------------------------|-------------------------------------|
---------------------------------|-------------------------------------|


  E   H        S S  S  S  S  S     W                 
--L----------------------------|--11----------------|
-----14--------L------------14-|--------------------|
----------------------11-13----|--------------------|
-------------------13----------|--------------------|
-------------------------------|--------------------|
-------------------------------|--------------------|


  E   E   E   E   E   E   E   E      E.  T T  S S  Q.     S S  E   
--L------13------14------16------|--18---L---16---16------L---14--|
-----11------11------11----------|--------------------------------|
-----------------------------15--|--------------------------------|
---------------------------------|--------------------------------|
---------------------------------|--------------------------------|
---------------------------------|--------------------------------|


   S  S H        S S  S S  S S     W                 
--13-11-9--------L---11------9-|--11----------------|
------------------------9-11---|--------------------|
-------------------------------|--------------------|
-------------------------------|--------------------|
-------------------------------|--------------------|
-------------------------------|--------------------|


  E   E   E   E   E   E   E   E      E.  T T  S S  E.  T T  E   E   E   
--L------13------14------16------|--18---L---16---16---L---14------13--|
-----11------11------11----------|-----------------------------16------|
-----------------------------15--|-------------------------------------|
---------------------------------|-------------------------------------|
---------------------------------|-------------------------------------|
---------------------------------|-------------------------------------|


  H.           E.  S    E   E   E   E   E   E   E   E   
--L------------L-----|-----18--16------16----------16--|
---------------------|-----19--18--19--18------15--18--|
---------------------|-------------20------15--15------|
---------------------|---------------------15----------|
---------------------|---------------------------------|
---------------------|---------------------------------|


   E   E   E   E   E   E   E   E      Q    S. T  Q    S. T  E.  T T 
--14------13--------------13------|--16----L----14----L----13---L---|
--16------15------16------15------|--18----L----16----L----15---L---|
------15------15--17--15------15--|---------------------------------|
------16------16------16------16--|---------------------------------|
----------------------------------|---------------------------------|
----------------------------------|---------------------------------|


   S  S  E.  T T  S  S  E   S  S  E.  T T    H        E   E   E   E   
--------11---L---10-11-13--11-13-14---L---|--------------18--16--14--|
-----11-----------------------------------|--------------------------|
------------------------------------------|--------------------------|
--13--------------------------------------|--------------------------|
------------------------------------------|--------------------------|
------------------------------------------|--------------------------|


   E   E   E   E   E   E   E   E      E   E   E   E   E   E   E   E   
--13------10--13--16--13--16--22--|--23--21------23--21------23--22--|
------11--------------------------|--23--21--23--23--21--23--23--23--|
----------------------------------|----------22----------22----------|
----------------------------------|----------------------------------|
----------------------------------|----------------------------------|
----------------------------------|----------------------------------|


  H.           E.  S    Q     Q.     S S  S  S  S  S 
--L------------L-----|-------23------L---23-21-------|
--L------------L-----|-------23------L---23-21-23-21-|
---------------------|-------------------------22-20-|
---------------------|-------------------------------|
---------------------|-------------------------------|
---------------------|-------------------------------|


   E   E   E   Q    S. T  S  S  E   
----------21-----------------------|
--23--23--21--21----L----21-19-18--|
--22--22------22----L----22-20-18--|
-----------------------------------|
-----------------------------------|
-----------------------------------|


   E.  T T  S  S  S  S  S  S  S  S  S  S  S  S 
--18---L---18-16-14----13----13-11-13-14-16-18-|
--18---L---18-16-14-16-14-14-14-11-14-16-18-19-|
--------------------15----15-------------------|
-----------------------------------------------|
-----------------------------------------------|
-----------------------------------------------|


   E   E   E   E   E   E   E   E      Q    S. T  S  S  Q    S. T  S  S 
--26--25--26--25--26--25--21--23--|--23----L----23-21------------------|
----------------------------------|--24----L----24-23-23----L----23-21-|
----------------------------------|-------------------23----L----23-22-|
----------------------------------|------------------------------------|
----------------------------------|------------------------------------|
----------------------------------|------------------------------------|


   Q    S. T  S  S  S  S  S  S  S  S  S  S    E   E   E   E   E   E   E   E   
-------------------------------18-19-21-22-|-----28--26--25--26--25--21--23--|
--19----L----19----19----19-21-19-21-23-24-|-----28--26--25--26--25--21--23--|
--20----L----20-20-20-20-20-22-------------|---------------------------------|
----------------20----20-------------------|---------------------------------|
-------------------------------------------|---------------------------------|
-------------------------------------------|---------------------------------|


  H.           E.  S    W                   H.           S S S  S 
--L------------L-----|-------------------|---------------6-7-9-10-|
--L------------L-----|-------------------|------------------------|
---------------------|-------------------|------------------------|
---------------------|-------------------|------------------------|
---------------------|-------------------|------------------------|
---------------------|-------------------|------------------------|


   W                   E   E   E   E   E   E   E   E   
--11----------------|--L------13------14------16------|
--------------------|-----11------11------11----------|
--------------------|-----------------------------15--|
--------------------|---------------------------------|
--------------------|---------------------------------|
--------------------|---------------------------------|


   E.  T T  S S  Q.     S S  E      S  S H        S S  S S  S S 
--18---L---16---16------L---14--|--13-11-9--------L---11------9-|
--------------------------------|------------------------9-11---|
--------------------------------|-------------------------------|
--------------------------------|-------------------------------|
--------------------------------|-------------------------------|
--------------------------------|-------------------------------|


   W                   E   E   E   E   E   E   E   E   
--11----------------|--L------13------14------16------|
--------------------|-----11------11------11----------|
--------------------|-----------------------------15--|
--------------------|---------------------------------|
--------------------|---------------------------------|
--------------------|---------------------------------|


   E.  T T  S S  E.  T T  E   E   E     E   H        S S  S  S  S  S 
--18---L---16---16---L---14------13--|--L----------------------------|
-----------------------------16------|-----14--------L------------14-|
-------------------------------------|----------------------11-13----|
-------------------------------------|-------------------13----------|
-------------------------------------|-------------------------------|
-------------------------------------|-------------------------------|


   W                   E   E   E   E   E   E   E   E   
--11----------------|--L------13------14------16------|
--------------------|-----11------11------11----------|
--------------------|-----------------------------15--|
--------------------|---------------------------------|
--------------------|---------------------------------|
--------------------|---------------------------------|


   E.  T T  S S  Q.     S S  E      S  S H        S S  S S  S S 
--18---L---16---16------L---14--|--13-11-9--------L---11------9-|
--------------------------------|------------------------9-11---|
--------------------------------|-------------------------------|
--------------------------------|-------------------------------|
--------------------------------|-------------------------------|
--------------------------------|-------------------------------|


   W                   E   E   E   E   E   E   E   E   
--11----------------|--L------13------14------16------|
--------------------|-----11------11------11----------|
--------------------|-----------------------------15--|
--------------------|---------------------------------|
--------------------|---------------------------------|
--------------------|---------------------------------|


   E.  T T  S S  E.  T T  E   E   E     H.           E.  S 
--18---L---16---16---L---14------13--|--L------------L-----|
-----------------------------16------|---------------------|
-------------------------------------|---------------------|
-------------------------------------|---------------------|
-------------------------------------|---------------------|
-------------------------------------|---------------------|


  E   E   E   E   E   E   E   E      E   E   E   E   E   E   E   E   
-----18--16------16----------16--|--14------13--------------13------|
-----19--18--19--18------15--18--|--16------15------16------15------|
-------------20------15--15------|------15------15--17--15------15--|
---------------------15----------|------16------16------16------16--|
---------------------------------|----------------------------------|
---------------------------------|----------------------------------|


   Q    S. T  Q    S. T  E.  T T     S  S  E.  T T  S  S  E   S  S  E.  T T 
--16----L----14----L----13---L---|--------11---L---10-11-13--11-13-14---L---|
--18----L----16----L----15---L---|-----11-----------------------------------|
---------------------------------|------------------------------------------|
---------------------------------|--13--------------------------------------|
---------------------------------|------------------------------------------|
---------------------------------|------------------------------------------|


  H        E   E   E   E      E   E   E   E   E   E   E   E   
--------------18--16--14--|--13------10--13--16--13--16--22--|
--------------------------|------11--------------------------|
--------------------------|----------------------------------|
--------------------------|----------------------------------|
--------------------------|----------------------------------|
--------------------------|----------------------------------|


   E   E   E   E   E   E   E   E     H.           E.  S 
--23--21------23--21------23--22--|--L------------L-----|
--23--21--23--23--21--23--23--23--|--L------------L-----|
----------22----------22----------|---------------------|
----------------------------------|---------------------|
----------------------------------|---------------------|
----------------------------------|---------------------|


  Q     Q.     S S  S  S  S  S     E   E   E   Q    S. T  S  S  E   
-------23------L---23-21-------|----------21-----------------------|
-------23------L---23-21-23-21-|--23--23--21--21----L----21-19-18--|
-------------------------22-20-|--22--22------22----L----22-20-18--|
-------------------------------|-----------------------------------|
-------------------------------|-----------------------------------|
-------------------------------|-----------------------------------|


   E.  T T  S  S  S  S  S  S  S  S  S  S  S  S 
--18---L---18-16-14----13----13-11-13-14-16-18-|
--18---L---18-16-14-16-14-14-14-11-14-16-18-19-|
--------------------15----15-------------------|
-----------------------------------------------|
-----------------------------------------------|
-----------------------------------------------|


   E   E   E   E   E   E   E   E      Q    S. T  S  S  Q    S. T  S  S 
--26--25--26--25--26--25--21--23--|--23----L----23-21------------------|
----------------------------------|--24----L----24-23-23----L----23-21-|
----------------------------------|-------------------23----L----23-22-|
----------------------------------|------------------------------------|
----------------------------------|------------------------------------|
----------------------------------|------------------------------------|


   Q    S. T  S  S  S  S  S  S  S  S  S  S    E   E   E   E   E   E   E   E   
-------------------------------18-19-21-22-|-----28--26--25--26--25--21--23--|
--19----L----19----19----19-21-19-21-23-24-|-----28--26--25--26--25--21--23--|
--20----L----20-20-20-20-20-22-------------|---------------------------------|
----------------20----20-------------------|---------------------------------|
-------------------------------------------|---------------------------------|
-------------------------------------------|---------------------------------|


  H.           E.  S    W                   H.           S S S  S   
--L------------L-----|-------------------|---------------6-7-9-10-||
--L------------L-----|-------------------|------------------------||
---------------------|-------------------|------------------------||
---------------------|-------------------|------------------------||
---------------------|-------------------|------------------------||
---------------------|-------------------|------------------------||

Kotex


SECOND GUITAR PART



              Mega Man X: Spark Mandrill                           


Staff-2
     E  E  E  E  E  E  E  E     W                   E  E  E  E  E  E  E  E   
E||-----4--2--1--2--1--------|-------------------|--------1-----2-----4-----|
B||-----4--2--1--2--1--2--4--|--L----------------|--L-----------------------|
G||--------------------1--3--|--L----------------|-----3-----3-----3-----3--|
D||--------------------------|-------------------|--------------------------|
A||--------------------------|-------------------|--------------------------|
E||--------------------------|-------------------|--------------------------|


  E.  T T S S Q.     S S E     S S H        S S S S S S    W                 
--6---L---4---4------L---2--|--1------------------------|-------------------|
----------------------------|----4-2--------L---4-----2-|--4----------------|
----------------------------|---------------------1-3---|-------------------|
----------------------------|---------------------------|-------------------|
----------------------------|---------------------------|-------------------|
----------------------------|---------------------------|-------------------|


  E  E  E  E  E  E  E  E     E.  T T S S E.  T T E  E  E   
--------1-----2-----4-----|--6---L---4---4---L---2-----1--|
--L-----------------------|-------------------------4-----|
-----3-----3-----3-----3--|-------------------------------|
--------------------------|-------------------------------|
--------------------------|-------------------------------|
--------------------------|-------------------------------|


  E  H        S S S S S S    W                   E  E  E  E  E  E  E  E   
--L-----------------------|-------------------|--------1-----2-----4-----|
-----2--------L---------2-|--4----------------|--L-----------------------|
----------------------1---|-------------------|-----3-----3-----3-----3--|
------------------1-4-----|-------------------|--------------------------|
--------------------------|-------------------|--------------------------|
--------------------------|-------------------|--------------------------|


  E.  T T S S Q.     S S E     S S H        S S S S S S    W                 
--6---L---4---4------L---2--|--1------------------------|-------------------|
----------------------------|----4-2--------L---4-----2-|--4----------------|
----------------------------|---------------------1-3---|-------------------|
----------------------------|---------------------------|-------------------|
----------------------------|---------------------------|-------------------|
----------------------------|---------------------------|-------------------|


  E  E  E  E  E  E  E  E     E.  T T S S E.  T T E  E  E   
--------1-----2-----4-----|--6---L---4---4---L---2-----1--|
--L-----------------------|-------------------------4-----|
-----3-----3-----3-----3--|-------------------------------|
--------------------------|-------------------------------|
--------------------------|-------------------------------|
--------------------------|-------------------------------|


  H.           E.  S    E  E  E  E  E  E  E  E     E  E  E  E  E  E  E  E   
--L------------L-----|-----6--4-----4--------4--|--2-----1-----------1-----|
---------------------|-----7--6--7--6-----3--6--|--4-----3-----4-----3-----|
---------------------|-----------8-----3--3-----|-----3-----3--5--3-----3--|
---------------------|-----------------3--------|-----4-----4-----4-----4--|
---------------------|--------------------------|--------------------------|
---------------------|--------------------------|--------------------------|


  Q    S. T Q    S. T E.  T T    S S E.  T T S S E  S S E.  T T 
--4----L----2----L----1---L---|------------------1----1-2---L---|
--6----L----4----L----3---L---|------4---L---3-4----4-----------|
------------------------------|----3----------------------------|
------------------------------|--1------------------------------|
------------------------------|---------------------------------|
------------------------------|---------------------------------|


  H        E  E  E  E     E  E  E  E  E  E  E   E   
--------------6--4--2--|--1--------1--4--1--4--10--|
-----------------------|--------3------------------|
-----------------------|-----3---------------------|
-----------------------|---------------------------|
-----------------------|---------------------------|
-----------------------|---------------------------|


   E  E   E   E  E   E   E   E     H.           E.  S 
--11--9------11--9------11--10--|--L------------L-----|
--11--9--11--11--9--11--11--11--|--L------------L-----|
---------10---------10----------|---------------------|
--------------------------------|---------------------|
--------------------------------|---------------------|
--------------------------------|---------------------|


  Q     Q.     S S  S S  S S     E   E  E   Q    S. T  S S E   
-------11------L---11-9------|----------9---------------------|
-------11------L---11-9-11-9-|--11--11--9---9----L-----9-7-6--|
------------------------10-8-|--10--10-----10----L----10-8-6--|
-----------------------------|--------------------------------|
-----------------------------|--------------------------------|
-----------------------------|--------------------------------|


  E.  T T S S S S S S S S S S S S     E   E   E   E   E   E   E   E   
--6---L---6-4-2---1---1---1-2-4-6-|--14--13--14--13--14--13------11--|
--6---L---6-4-2-4-2-2-2-4-2-4-6-7-|--------------------------14------|
----------------3---3---3---------|----------------------------------|
----------------------------------|----------------------------------|
----------------------------------|----------------------------------|
----------------------------------|----------------------------------|


   Q    S. T  S  S  Q    S. T  S  S    Q    S. T S S S S S  S S S  S  S 
--11----L----11--9------------------|-------------------------6-7--9-10-|
--12----L----12-11-11----L----11--9-|--7----L----7---7---7--9-7-9-11-12-|
-------------------11----L----11-10-|--8----L----8-8-8-8-8-10-----------|
------------------------------------|--------------8---8----------------|
------------------------------------|-----------------------------------|
------------------------------------|-----------------------------------|


  E   E   E   E   E   E   E   E     H.           E.  S    W                 
-----16--14--13--14--13------11--|--L------------L-----|-------------------|
-----16--14--13--14--13--14--11--|--L------------L-----|-------------------|
-------------------------13------|---------------------|-------------------|
---------------------------------|---------------------|-------------------|
---------------------------------|---------------------|-------------------|
---------------------------------|---------------------|-------------------|


  H.           S S S S    W                   E  E  E  E  E  E  E  E   
-----------------------|-------------------|--------1-----2-----4-----|
-----------------0-2-3-|--4----------------|--L-----------------------|
---------------3-------|-------------------|-----3-----3-----3-----3--|
-----------------------|-------------------|--------------------------|
-----------------------|-------------------|--------------------------|
-----------------------|-------------------|--------------------------|


  E.  T T S S Q.     S S E     S S H        S S S S S S    W                 
--6---L---4---4------L---2--|--1------------------------|-------------------|
----------------------------|----4-2--------L---4-----2-|--4----------------|
----------------------------|---------------------1-3---|-------------------|
----------------------------|---------------------------|-------------------|
----------------------------|---------------------------|-------------------|
----------------------------|---------------------------|-------------------|


  E  E  E  E  E  E  E  E     E.  T T S S E.  T T E  E  E   
--------1-----2-----4-----|--6---L---4---4---L---2-----1--|
--L-----------------------|-------------------------4-----|
-----3-----3-----3-----3--|-------------------------------|
--------------------------|-------------------------------|
--------------------------|-------------------------------|
--------------------------|-------------------------------|


  E  H        S S S S S S    W                   E  E  E  E  E  E  E  E   
--L-----------------------|-------------------|--------1-----2-----4-----|
-----2--------L---------2-|--4----------------|--L-----------------------|
----------------------1---|-------------------|-----3-----3-----3-----3--|
------------------1-4-----|-------------------|--------------------------|
--------------------------|-------------------|--------------------------|
--------------------------|-------------------|--------------------------|


  E.  T T S S Q.     S S E     S S H        S S S S S S    W                 
--6---L---4---4------L---2--|--1------------------------|-------------------|
----------------------------|----4-2--------L---4-----2-|--4----------------|
----------------------------|---------------------1-3---|-------------------|
----------------------------|---------------------------|-------------------|
----------------------------|---------------------------|-------------------|
----------------------------|---------------------------|-------------------|


  E  E  E  E  E  E  E  E     E.  T T S S E.  T T E  E  E   
--------1-----2-----4-----|--6---L---4---4---L---2-----1--|
--L-----------------------|-------------------------4-----|
-----3-----3-----3-----3--|-------------------------------|
--------------------------|-------------------------------|
--------------------------|-------------------------------|
--------------------------|-------------------------------|


  H.           E.  S    E  E  E  E  E  E  E  E     E  E  E  E  E  E  E  E   
--L------------L-----|-----6--4-----4--------4--|--2-----1-----------1-----|
---------------------|-----7--6--7--6-----3--6--|--4-----3-----4-----3-----|
---------------------|-----------8-----3--3-----|-----3-----3--5--3-----3--|
---------------------|-----------------3--------|-----4-----4-----4-----4--|
---------------------|--------------------------|--------------------------|
---------------------|--------------------------|--------------------------|


  Q    S. T Q    S. T E.  T T    S S E.  T T S S E  S S E.  T T 
--4----L----2----L----1---L---|------------------1----1-2---L---|
--6----L----4----L----3---L---|------4---L---3-4----4-----------|
------------------------------|----3----------------------------|
------------------------------|--1------------------------------|
------------------------------|---------------------------------|
------------------------------|---------------------------------|


  H        E  E  E  E     E  E  E  E  E  E  E   E   
--------------6--4--2--|--1--------1--4--1--4--10--|
-----------------------|--------3------------------|
-----------------------|-----3---------------------|
-----------------------|---------------------------|
-----------------------|---------------------------|
-----------------------|---------------------------|


   E  E   E   E  E   E   E   E     H.           E.  S 
--11--9------11--9------11--10--|--L------------L-----|
--11--9--11--11--9--11--11--11--|--L------------L-----|
---------10---------10----------|---------------------|
--------------------------------|---------------------|
--------------------------------|---------------------|
--------------------------------|---------------------|


  Q     Q.     S S  S S  S S     E   E  E   Q    S. T  S S E   
-------11------L---11-9------|----------9---------------------|
-------11------L---11-9-11-9-|--11--11--9---9----L-----9-7-6--|
------------------------10-8-|--10--10-----10----L----10-8-6--|
-----------------------------|--------------------------------|
-----------------------------|--------------------------------|
-----------------------------|--------------------------------|


  E.  T T S S S S S S S S S S S S     E   E   E   E   E   E   E   E   
--6---L---6-4-2---1---1---1-2-4-6-|--14--13--14--13--14--13------11--|
--6---L---6-4-2-4-2-2-2-4-2-4-6-7-|--------------------------14------|
----------------3---3---3---------|----------------------------------|
----------------------------------|----------------------------------|
----------------------------------|----------------------------------|
----------------------------------|----------------------------------|


   Q    S. T  S  S  Q    S. T  S  S    Q    S. T S S S S S  S S S  S  S 
--11----L----11--9------------------|-------------------------6-7--9-10-|
--12----L----12-11-11----L----11--9-|--7----L----7---7---7--9-7-9-11-12-|
-------------------11----L----11-10-|--8----L----8-8-8-8-8-10-----------|
------------------------------------|--------------8---8----------------|
------------------------------------|-----------------------------------|
------------------------------------|-----------------------------------|


  E   E   E   E   E   E   E   E     H.           E.  S    W                 
-----16--14--13--14--13------11--|--L------------L-----|-------------------|
-----16--14--13--14--13--14--11--|--L------------L-----|-------------------|
-------------------------13------|---------------------|-------------------|
---------------------------------|---------------------|-------------------|
---------------------------------|---------------------|-------------------|
---------------------------------|---------------------|-------------------|


  H.           S S S S   
-----------------------||
-----------------0-2-3-||
---------------3-------||
-----------------------||
-----------------------||
-----------------------||



Duration Legend
---------------
W - whole
H - half
Q - quarter
E - 8th
S - 16th
T - 32nd
X - 64th
. - note dotted
|-n-|  - n-tuplets


Tablature Legend
----------------
L - tied note
x - dead note
g - grace note
(n) - ghost note
> - accentuded note
NH - natural harmonic
AH - artificial harmonic
TH - tapped harmonic
SH - semi harmonic
PH - pitch harmonic
h - hammer on
p - pull off
b - bend
br - bendRelease
pb - preBend
pbr - preBendRelease
brb - bendReleaseBend
\n/ - tremolo bar dip
\n - tremolo bar dive
-/n - tremolo bar Release up
/n\ - tremolo bar inverted dip
/n - tremolo bar return
-\n - tremolo bar Release down
S - shift slide
s - legato slide
/ -  slide into from below or out of upwards
\ -  slide into from above or out of downwards
~ - vibrato
W - wide vibrato
tr - trill
TP - tremolo picking
T - tapping
S - slap
P - pop
< - fade in
^ - brush up
v - brush down

maelstrom79

Awesome.  Thanks so much.
"Sex is like a bridge game.  You'd better have a good partner or you'd better have a good hand"

Kotex

#4
August 03, 2007, 04:50:24 PM Last Edit: August 03, 2007, 05:05:48 PM by Kotex
No problem dude.
I've been working on the Cloud Castle one. See if I can get that up sometime. It's kinda' hard though because it has so many intruments. It's hard to arrange for guitar.


EDIT: Okay, here the Rythm part. I left the empty space in, so later when I get the rest of it, you'd know when to play. I'll post this the lead, and try to get the bass. Basically the major parts.


Rhythm

     S S S S S S S S S S S S S S S S    S S S S S S S S S S S S S S S S 
E||--0-----------2-----------0-------|--0-----------2-----------0-------|
B||----2---4-2-----2---4-2-----4-2---|----2---4-2-----2---4-2-----4-0---|
G||------1-----1-----1-----1-------1-|------1-----1-----1-----1---------|
D||----------------------------------|--------------------------------4-|
A||----------------------------------|----------------------------------|
E||----------------------------------|----------------------------------|


  S S S S S S S S S S S S S S S S    S S S S S S S S S S S S S S S S 
--0-----------2-----------0-------|--0-----------2-----------9-------|
--------4-----------4-------4-0---|--------4-----------4-------7-9---|
----2-----2-----2-----2-----------|----2-----2-----2-----2---------8-|
------2-----2-----2-----2-------4-|------2-----2-----2-----2---------|
----------------------------------|----------------------------------|
----------------------------------|----------------------------------|


  S S S S S S S S S S S S S S S S    S S S S S S S S S S S S S S S S 
----------------------------------|--0-----------2-----------0-------|
--------4-----7-----4-----5-4-2---|----2---4-2-----2---4-2-----4-0---|
--9-6-----6-----6-----6---------1-|------1-----1-----1-----1---------|
------6-----6-----6-----6---------|--------------------------------4-|
----------------------------------|----------------------------------|
----------------------------------|----------------------------------|


  S S S S S S S S S S S S S S S S    S S S S S S S S S S S S S S S S 
--0-----------2-----------0-------|--0-----------2-----------9-------|
--------4-----------4-------4-0---|--------4-----------4-------7-9---|
----2-----2-----2-----2-----------|----2-----2-----2-----2---------8-|
------2-----2-----2-----2-------4-|------2-----2-----2-----2---------|
----------------------------------|----------------------------------|
----------------------------------|----------------------------------|


  W                   W                   W                   W                 
-------------------|-------------------|-------------------|-------------------|
-------------------|-------------------|-------------------|-------------------|
-------------------|-------------------|-------------------|-------------------|
-------------------|-------------------|-------------------|-------------------|
-------------------|-------------------|-------------------|-------------------|
-------------------|-------------------|-------------------|-------------------|


  W                   W                   W                   W                 
-------------------|-------------------|-------------------|-------------------|
-------------------|-------------------|-------------------|-------------------|
-------------------|-------------------|-------------------|-------------------|
-------------------|-------------------|-------------------|-------------------|
-------------------|-------------------|-------------------|-------------------|
-------------------|-------------------|-------------------|-------------------|


  W                   W                   W                   W                 
-------------------|-------------------|-------------------|-------------------|
-------------------|-------------------|-------------------|-------------------|
-------------------|-------------------|-------------------|-------------------|
-------------------|-------------------|-------------------|-------------------|
-------------------|-------------------|-------------------|-------------------|
-------------------|-------------------|-------------------|-------------------|




  W                   W                   W                   W                 
-------------------|-------------------|-------------------|-------------------|
-------------------|-------------------|-------------------|-------------------|
-------------------|-------------------|-------------------|-------------------|
-------------------|-------------------|-------------------|-------------------|
-------------------|-------------------|-------------------|-------------------|
-------------------|-------------------|-------------------|-------------------|


  W                   W                   W                   W                 
-------------------|-------------------|-------------------|-------------------|
-------------------|-------------------|-------------------|-------------------|
-------------------|-------------------|-------------------|-------------------|
-------------------|-------------------|-------------------|-------------------|
-------------------|-------------------|-------------------|-------------------|
-------------------|-------------------|-------------------|-------------------|


  S S S S S S S S S S S S S S S S    S S S S S S S S S S S S S S S S 
----------------------------------|----------------------------------|
--1-----0-----1-----0-----0-1-3-0-|--0-----------0---------------0---|
----2-----2-----2-----2-----------|----1---2-1-----1---2-1---1-2---1-|
------3-----3-----3-----3---------|------2-----2-----2-----2---------|
----------------------------------|----------------------------------|
----------------------------------|----------------------------------|






  S S S S S S S S S S S S S S S S    W                   W                 
------------------------------0---|-------------------|-------------------|
--3-0---1-0---3-0---1-0---1-3---1-|-------------------|-------------------|
------0-----0-----0-----0---------|-------------------|-------------------|
----------------------------------|-------------------|-------------------|
----------------------------------|-------------------|-------------------|
----------------------------------|-------------------|-------------------|


  W                   W                   W                   W                 
-------------------|-------------------|-------------------|-------------------|
-------------------|-------------------|-------------------|-------------------|
-------------------|-------------------|-------------------|-------------------|
-------------------|-------------------|-------------------|-------------------|
-------------------|-------------------|-------------------|-------------------|
-------------------|-------------------|-------------------|-------------------|


  W                   W                   W                   W                 
-------------------|-------------------|-------------------|-------------------|
-------------------|-------------------|-------------------|-------------------|
-------------------|-------------------|-------------------|-------------------|
-------------------|-------------------|-------------------|-------------------|
-------------------|-------------------|-------------------|-------------------|
-------------------|-------------------|-------------------|-------------------|


  W                   W                   W                   W                 
-------------------|-------------------|-------------------|-------------------|
-------------------|-------------------|-------------------|-------------------|
-------------------|-------------------|-------------------|-------------------|
-------------------|-------------------|-------------------|-------------------|
-------------------|-------------------|-------------------|-------------------|
-------------------|-------------------|-------------------|-------------------|


  W                   W                   W                   W                 
-------------------|-------------------|-------------------|-------------------|
-------------------|-------------------|-------------------|-------------------|
-------------------|-------------------|-------------------|-------------------|
-------------------|-------------------|-------------------|-------------------|
-------------------|-------------------|-------------------|-------------------|
-------------------|-------------------|-------------------|-------------------|


  W                   W                   W                   W                 
-------------------|-------------------|-------------------|-------------------|
-------------------|-------------------|-------------------|-------------------|
-------------------|-------------------|-------------------|-------------------|
-------------------|-------------------|-------------------|-------------------|
-------------------|-------------------|-------------------|-------------------|
-------------------|-------------------|-------------------|-------------------|


  W                   W                   W                   W                 
-------------------|-------------------|-------------------|-------------------|
-------------------|-------------------|-------------------|-------------------|
-------------------|-------------------|-------------------|-------------------|
-------------------|-------------------|-------------------|-------------------|
-------------------|-------------------|-------------------|-------------------|
-------------------|-------------------|-------------------|-------------------|


  W                   W                   W                   W                 
-------------------|-------------------|-------------------|-------------------|
-------------------|-------------------|-------------------|-------------------|
-------------------|-------------------|-------------------|-------------------|
-------------------|-------------------|-------------------|-------------------|
-------------------|-------------------|-------------------|-------------------|
-------------------|-------------------|-------------------|-------------------|


 

W                   W                   W                 
-------------------|-------------------|-------------------|
-------------------|-------------------|-------------------|
-------------------|-------------------|-------------------|
-------------------|-------------------|-------------------|
-------------------|-------------------|-------------------|
-------------------|-------------------|-------------------|


 





S S S S S S S S S S S S S S S S    S S S S S S S S S S S S S S S S 
----------------------------------|----------------------------------|
--1-----0-----1-----0-----0-1-3-0-|--0-----------0---------------0---|
----2-----2-----2-----2-----------|----1---2-1-----1---2-1---1-2---1-|
------3-----3-----3-----3---------|------2-----2-----2-----2---------|
----------------------------------|----------------------------------|
----------------------------------|----------------------------------|









  S S S S S S S S S S S S S S S S                                               
------------------------------0---|----|----|----|----|----|----|----|----|----|
--3-0---1-0---3-0---1-0---1-3---1-|----|----|----|----|----|----|----|----|----|
------0-----0-----0-----0---------|----|----|----|----|----|----|----|----|----|
----------------------------------|----|----|----|----|----|----|----|----|----|
----------------------------------|----|----|----|----|----|----|----|----|----|
----------------------------------|----|----|----|----|----|----|----|----|----|


----|----|----|----|----|----|----|----|----||
----|----|----|----|----|----|----|----|----||
----|----|----|----|----|----|----|----|----||
----|----|----|----|----|----|----|----|----||
----|----|----|----|----|----|----|----|----||
----|----|----|----|----|----|----|----|----||




Go Up