Destruction Derby 2 - Jug

Started by Ardius, May 27, 2007, 11:40:17 AM

previous topic - next topic
Go Down

Ardius

Can somone tab the song "Rejection" from the game Destruction Derby 2 (PS1, PC). The song was originally by a band called Jug, but they are so unknown that there are pretty much no tabs for them.
So, could someone make a guitar tab for it, please? Its the second song on the game disc and is featured on the "Chalk Canyon" level.
Alternatively, you can find the songs here:
Destruction Derby 2 soundtrack, MP3

Ive even talked to one of the members of the band, and they didnt right down the music because they did all the recordings in jam sessions.......
thanks in advance

Deezer

I'm liking this soundtrack.

OK, here's what I've got so far:

Tuning: Dropped D, down a whole step (CGCFAd)

|-----------------|------------------|------------------|------------------|
|-----------------|------------------|------------------|------------------|
|-----------------|------------------|------------------|------------------|
|-0---------------|-6------------6\--|-3------------3/--|-6------------6\--|
|-0---------------|-6------------6\--|-3------------3/--|-6------------6\--|
|-0---------------|-6------------6\--|-3------------3/--|-6------------6\--| x2

|--------------------------|--------------------------|
|--------------------------|--------------------------|
|--------------------------|--------------------------|
|--------------------------|--------------------------|
|-0--0--0--0-0-0-0-0--0--0-|-3--3--3--3-3-3-3-3--3--3-|
|-0--0--0--0-0-0-0-0--0--0-|-3--3--3--3-3-3-3-3--3--3-|
  pm .  .  . . . . .  .  .   .  .  .  . . . . .  .  .

|--------------------------|------------------------------|
|--------------------------|------------------------------|
|--------------------------|------------------------------|
|--------------------------|------------------------------|
|-2--2--2--2-2-2-2-2--5--5-|-6--6--6--6-6-6-6-6-6-6-6-6-6-|
|-2--2--2--2-2-2-2-2--5--5-|-6--6--6--6-6-6-6-6-6-6-6-6-6-|
  .  .  .  . . . . .  .  .   .  .  .  . . . . . . . . . .

|--------------------------|--------------------------|
|--------------------------|--------------------------|
|--------------------------|--------------------------|
|--------------------------|--------------------------|
|-0--0--0--0-0-0-0-0--0--0-|-3--3--3--3-3-3-3-3--3--3-|
|-0--0--0--0-0-0-0-0--0--0-|-3--3--3--3-3-3-3-3--3--3-|
  pm .  .  . . . . .  .  .   .  .  .  . . . . .  .  .

|--------------------------|---------------------------|
|--------------------------|---------------------------|
|--------------------------|---------------------------|
|--------------------------|---------------------------|
|-2--2--2--2-2-2-2-2--5--5-|-5--5--5--7-7-7-13--13\----|
|-2--2--2--2-2-2-2-2--5--5-|-5--5--5--7-7-7-13--13\----|
  .  .  .  . . . . .  .  .   .  .  .  . . .


Ardius

#2
May 29, 2007, 02:33:52 AM Last Edit: May 29, 2007, 11:58:54 AM by Ardius
Yeah, thats a little like what I worked out.....but Im no good at making tabs hence why i asked. On mine, I ended up doing slides on every note at the start, which isnt right when I listen to it through again.
Cheers for the help.
If anyones interested, heres the tracklist info:
*Song name - Artist*
1. Slapshot - Jug
2. Rejection - Jug
3. Dead Happy - Jug
4. Footsteps - Jug
5. How Do You Know - Jug
6. Better - Jug
7. Pushed Away - Jug
8. Telekinesis - Tuscan
9. Pinnacle - Tuscan
10. Little Pig - Jug
11. Soundcheck - Jug
12. Joyrider - Jug
13. Direction - Jug
14. Jade - Jug
15. Breed - Jug
16. Sun Drive - Tuscan
17. Burn Out - Jug
18. Crawl - Jug
You can find some of the tracks with the lyrics here:
www.myspace.com/jug1
www.myspace.com/jug3
www.myspace.com/jug4

Feel free to tab any of the other songs as well, but dont feel that you have to.

jekyll

Hey, Awesome tab. This soundtrack is the best.
I realise it's been 13 years since anyone has added to this thread, but I'm desperately needing help working out the song "Breed" from this album.

Can't quite figure it out. I've used the program Riffstation to get some idea of the chords and have come up with Em D and A.

Here's hoping someone out there can help :D

Deezer

I will try to look at it this week.

Deezer

Here's what I'm hearing:

Code Select

  Em    D     A     A
--7--|--5--|--5--|--5--|
--8--|--7--|--5--|--5--|
--9--|--7--|--6--|--6--|
--9--|--7--|--7--|--7--|
--7--|--5--|--7--|--7--|
-----|-----|--5--|--5--|  x8

 D/A   C/G    Em    Em
--5--|--3--|--0--|--0--|
--7--|--5--|--0--|--0--|
--7--|--5--|--0--|--0--|
--7--|--5--|--2--|--2--|
--5--|--3--|--2--|--2--|
--5--|--3--|--0--|--0--|  x4

  Em    D     A     A
--7--|--5--|--5--|--5--|
--8--|--7--|--5--|--5--|
--9--|--7--|--6--|--6--|
--9--|--7--|--7--|--7--|
--7--|--5--|--7--|--7--|
-----|-----|--5--|--5--|  x4

                          Em
--------------------------0--
--------------------------0--
--------0--0--------0--0--0--
-----2-----------0--------2--
--3-----------2-----------2--
--------------------------0--

Go Up