Chrono Trigger Far Away Memories

Started by gibmiser, May 01, 2007, 12:26:21 AM

previous topic - next topic
Go Down

gibmiser

May 01, 2007, 12:26:21 AM Last Edit: May 01, 2007, 12:28:04 AM by gibmiser
Hey, I like the collection you have going and have been using this site for about a year, but was disappointed when I initially discovered this song was tabbed nowhere. 

Here is the version I listen to and have enjoyed by Neil Benjamin.

http://www.last.fm/music/Neil+Benjamin/_/Chrono+Trigger+Far+Away+Memories+OC+ReMix

This is the only version of the tab I have ever found, but for some reason the guitar it tuned in the most difficult way imaginable, rendering it nearly useless.

http://www.s93850634.onlinehome.us/ct_tab.htm

So, I have been working on my own version of the tab off and on for the past year like I said, but in standard tuning.

The way I have this tabbed requires only the G B and high E strings.   I love this song, so heres the tab so far and I hope you enjoy it.

Intro Bassline
------------------
----2--4------2--4
1-1--1----1-1--1--


----------2-2------2--1-1-------0h1-----------------------------
2------4---------------------4------4-2----1-2-4------2--1--2--
---------------------------------------------------3------------


-----4--4-2p1--------------------4---------1-------
-4------------2----2-2-4-2-1-1-2----2-2--4---4----2
----------------3----------------------------------


---4--4-2p1--------------------4--6---3-4---
-4----------2----2-2-4-2-1-1-2------4-------
--------------3-----------------------------

Here is where it loses continuity.  I will update it as I work on it.

---4--4--4--2-1--------4--4--4--4/6-?-----
1---------------2---1---------------?2---
------------------------------------?--3-

---4--4--4--4/6-
1---
-

---3-4--4--9--9-9-8-6-4--1-4-6--6-4-2-2--1--1-1---1-2-1------------------
-4--------------------------------------4-------4-------4-4-2-2----2-4--4
----------------------------------------------------------------3--------

1-6-8-9-8-6--4-6-4-6-4--4/6-2-44-2-44-2-4-1-44-1-444?--33---33---3-4
----------------------------------------------------?4----4----4----
----------------------------------------------------?

Deezer

Pretty good OC ReMix.

Quote from: gibmiser on May 01, 2007, 12:26:21 AM
This is the only version of the tab I have ever found, but for some reason the guitar it tuned in the most difficult way imaginable, rendering it nearly useless.

http://www.s93850634.onlinehome.us/ct_tab.htm


I don't have the original track handy, but it doesn't seem too bad. Just have to slap a capo on the 2nd fret.

gibmiser

#2
May 02, 2007, 04:47:49 PM Last Edit: May 02, 2007, 04:52:24 PM by gibmiser
oh god you gotta be kidding me its just a cappo?  damnit im a retard.

seriously goddamnit graaaaghahahgahg

Go Up