Super Mario 64 - Slider

Started by Deezer, May 04, 2007, 11:34:17 PM

previous topic - next topic
Go Down

Deezer

I found this tab I was working on in '05 that I probably won't ever finish. Nothing is double-checked, so some parts (especially the end) might be wrong.


Super Mario 64 (Nintendo 64)
"Slider"

Intro:
======

-----------------------------------------------------
-16/17------16/17------16/17---14---12-------------------------
-13/14------13/14------13/14-------------15------------------
--------------------------------------------------------------------
--------------------------------------------------------------------
--------------------------------------------------------------------

Part 1A:
========

--------------------------------------------------------------------
----------12----------------------------------------------------------
-14------------14------------------------------------------------------
--------------------12-------------------------14---12---------------------
-------------------------------------14---14-------------14--------------
--------------------------------------------------------------------

--------------------------------------------------------------------
--------------------------------------------------------------------
---------------14------------------14-----------------14------------------
-----------------------------------------------------------14--------
-12-----12------------12----12----------12-----12--------------------------
--------------------------------------------------------------------

---------------------------------------------12-----------------------
-----------12--------13------------12---12--------15---12------------------
-11---11--------14--------------------------------------------------------
--------------------------------------------------------------------
--------------------------------------------------------------------
--------------------------------------------------------------------

--------------------------------------------------------------------
--------------------------------------------------------------------
-14-----14------------14--------------------------------------------
----------------------------------14---12---------------------------
---------------12------------12-------------------------------------
--------------------------------------------------------------------

Part 1B:
========

--------------------------------------------------------------------
-----------12----------------------------------------------------------
-14---14--------14------------------------------------------------------
---------------------12-------------------------14---12---------------------
--------------------------------------14---14-------------14--------------
---------------------------------------------------------------------

--------------------------------------------------------------------
--------------------------------------------------------------------
---------------14------------------14-----------------14------------------
-----------------------------------------------------------14--------
-12-----12------------12----12----------12-----12--------------------------
--------------------------------------------------------------------

---------------------------------------------12-----------------------
-----------12--------13------------12---12--------15---12-----------------------
-11---11--------14--------------------------------------------------------
--------------------------------------------------------------------
--------------------------------------------------------------------
--------------------------------------------------------------------

--------------------------------------------------------------------
--------------------------------------------------------------------
-14-----14------------14--------------------------------------------
----------------------------------14---12---------------------------
---------------12------------12-------------------------------------
--------------------------------------------------------------------

Whistle:
========
Tabbed one octave lower.

--------------------------------------------------------------------
-------------------------12-------11----------------12----------------
----------------11-12-14-------------------14------------11-------------------
----12-11-12-14-------------------------------------------------------------
--------------------------------------------------------------------
--------------------------------------------------------------------

--------------------------------------------------------------------
-------------------------------------12---14------------------------
-12-------14-------11-----------14-----------------------------------------
--------------------------------------------------------------------
--------------------------------------------------------------------
--------------------------------------------------------------------

------------------------12---14------------14---12-----------
-15-----------14---15-------------------------------------15---14---15-----
--------------------------------------14------------------------------
--------------------------------------------------------------------
--------------------------------------------------------------------
--------------------------------------------------------------------

Part 2:
=======

-17-------17-------17---14---12---11-------------------------------------
-15-------15-------15------------------15-------15------12h
--------------------------------------------------------------------
--------------------------------------------------------------------
--------------------------------------------------------------------
--------------------------------------------------------------------

--------------------------------------------------------------------
15----12h14h15------------------------------------------------------------
--------------------------------------------------------------------
--------------------------------------------------------------------
--------------------------------------------------------------------
--------------------------------------------------------------------

CarnivalJunkie

it's close enough to know what it is just from playing it:-) haha awesome.

That games music rules.


Go Up